Dismiss Notice
Join The Good Vibe Zone today, and hangout with the nicest bass community in the world :)

TRying to tab 311's Homebrew

Discussion in 'Maddrakkett's Caffe' started by may_the_funk_be_with_you, Jun 21, 2011.

  1. may_the_funk_be_with_you

    may_the_funk_be_with_you

    Joined:
    Aug 16, 2009
    Messages:
    98
    Likes Received:
    0
    Trophy Points:
    0
    Location:
    France
    Hi guys and gurls,

    I am trying to tab Homebrew and I'am struggling with the slap part. I have already transribed 3/4 of the stuff (see tab below) but unfortunately the ending fill is covered by Tim's and Nick's guitars so it is really hard to figure out what P Nut plays here...
    Can someone help please ?

    Slap part- x2

    e e s e s e s s s s e

    G|------x---x-----7---7---|
    D|------x---x-------------|
    A|------x---x-------------| x3
    E|--0-0-x-0-x-0-x---x---1-|
    B|------------------------|

    S S L S L S S P S P S


    e s s s s s s

    G|------7---7h9--?
    D|----------------?
    A|----------------?
    E|--0-x---x-----x-?
    B|----------------?

    S S P S P S
     
Loading...